ISO-10303-21;
HEADER;
FILE_DESCRIPTION (( 'STEP AP214' ),
    '1' );
FILE_NAME ('am-3947-125 375H x 125IN Spacer.STEP',
    '2018-09-24T20:50:26',
    ( '' ),
    ( '' ),
    'SwSTEP 2.0',
    'SolidWorks 2018',
    '' );
FILE_SCHEMA (( 'AUTOMOTIVE_DESIGN' ));
ENDSEC;

DATA;
#1 =( LENGTH_UNIT ( ) NAMED_UNIT ( * ) SI_UNIT ( $, .METRE. ) );
#2 = AXIS2_PLACEMENT_3D ( 'NONE', #195, #46, #61 ) ;
#3 = DIRECTION ( 'NONE',  ( -0.8660254037844387076, 0.5000000000000001110, 0.0000000000000000000 ) ) ;
#4 = CIRCLE ( 'NONE', #177, 0.3937007874015748254 ) ;
#5 =( GEOMETRIC_REPRESENTATION_CONTEXT ( 3 ) GLOBAL_UNCERTAINTY_ASSIGNED_CONTEXT ( ( #188 ) ) GLOBAL_UNIT_ASSIGNED_CONTEXT ( ( #182, #184, #194 ) ) REPRESENTATION_CONTEXT ( 'NONE', 'WORKASPACE' ) );
#6 = ORIENTED_EDGE ( 'NONE', *, *, #146, .T. ) ;
#7 = CARTESIAN_POINT ( 'NONE',  ( -0.2165063509461097047, 3.211045840221350913E-17, 0.0000000000000000000 ) ) ;
#8 = DIRECTION ( 'NONE',  ( 0.5000000000000001110, -0.8660254037844385966, 0.0000000000000000000 ) ) ;
#9 = PRODUCT_DEFINITION ( 'UNKNOWN', '', #20, #103 ) ;
#10 = VECTOR ( 'NONE', #204, 39.37007874015748143 ) ;
#11 = LINE ( 'NONE', #170, #89 ) ;
#12 = ORIENTED_EDGE ( 'NONE', *, *, #205, .F. ) ;
#13 = MECHANICAL_DESIGN_GEOMETRIC_PRESENTATION_REPRESENTATION (  '', ( #244 ), #166 ) ;
#14 =( NAMED_UNIT ( * ) SI_UNIT ( $, .STERADIAN. ) SOLID_ANGLE_UNIT ( ) );
#15 = DIRECTION ( 'NONE',  ( -0.5000000000000000000, -0.8660254037844385966, 0.0000000000000000000 ) ) ;
#16 = SHAPE_DEFINITION_REPRESENTATION ( #150, #78 ) ;
#17 = EDGE_CURVE ( 'NONE', #70, #216, #128, .T. ) ;
#18 = EDGE_LOOP ( 'NONE', ( #178, #292, #189, #306 ) ) ;
#19 = EDGE_LOOP ( 'NONE', ( #140 ) ) ;
#20 = PRODUCT_DEFINITION_FORMATION_WITH_SPECIFIED_SOURCE ( 'ANY', '', #267, .NOT_KNOWN. ) ;
#21 = FILL_AREA_STYLE_COLOUR ( '', #289 ) ;
#22 = CARTESIAN_POINT ( 'NONE',  ( 0.1082531754730549634, -0.1874999999999999167, 0.1250000000000000000 ) ) ;
#23 = CARTESIAN_POINT ( 'NONE',  ( -0.1082531754730547829, -0.1874999999999999722, 0.0000000000000000000 ) ) ;
#24 = EDGE_CURVE ( 'NONE', #190, #272, #113, .T. ) ;
#25 = AXIS2_PLACEMENT_3D ( 'NONE', #248, #92, #156 ) ;
#26 = DIRECTION ( 'NONE',  ( -3.154466349054401235E-16, 1.000000000000000000, 0.0000000000000000000 ) ) ;
#27 = ORIENTED_EDGE ( 'NONE', *, *, #200, .T. ) ;
#28 = LINE ( 'NONE', #254, #260 ) ;
#29 = ORIENTED_EDGE ( 'NONE', *, *, #218, .T. ) ;
#30 = PRODUCT_RELATED_PRODUCT_CATEGORY ( 'part', '', ( #267 ) ) ;
#31 = LINE ( 'NONE', #58, #290 ) ;
#32 = DIRECTION ( 'NONE',  ( -0.5000000000000002220, -0.8660254037844384856, 0.0000000000000000000 ) ) ;
#33 = VECTOR ( 'NONE', #152, 39.37007874015748143 ) ;
#34 = DIRECTION ( 'NONE',  ( 0.0000000000000000000, -0.0000000000000000000, -1.000000000000000000 ) ) ;
#35 = LENGTH_MEASURE_WITH_UNIT ( LENGTH_MEASURE( 0.02539999999999999897 ), #1 );
#36 = DIRECTION ( 'NONE',  ( -0.0000000000000000000, -0.0000000000000000000, -1.000000000000000000 ) ) ;
#37 = DIMENSIONAL_EXPONENTS ( 1.000000000000000000, 0.0000000000000000000, 0.0000000000000000000, 0.0000000000000000000, 0.0000000000000000000, 0.0000000000000000000, 0.0000000000000000000 ) ;
#38 =( CONVERSION_BASED_UNIT ( 'INCH', #242 ) LENGTH_UNIT ( ) NAMED_UNIT ( #37 ) );
#39 = EDGE_CURVE ( 'NONE', #125, #114, #79, .T. ) ;
#40 =( NAMED_UNIT ( * ) SI_UNIT ( $, .STERADIAN. ) SOLID_ANGLE_UNIT ( ) );
#41 = EDGE_CURVE ( 'NONE', #266, #70, #274, .T. ) ;
#42 = VECTOR ( 'NONE', #93, 39.37007874015748143 ) ;
#43 = AXIS2_PLACEMENT_3D ( 'NONE', #64, #155, #255 ) ;
#44 = DIRECTION ( 'NONE',  ( -0.0000000000000000000, -0.0000000000000000000, -1.000000000000000000 ) ) ;
#45 = DIRECTION ( 'NONE',  ( -1.000000000000000000, -3.154466349054401235E-16, 0.0000000000000000000 ) ) ;
#46 = DIRECTION ( 'NONE',  ( 0.0000000000000000000, 0.0000000000000000000, 1.000000000000000000 ) ) ;
#47 = ORIENTED_EDGE ( 'NONE', *, *, #205, .T. ) ;
#48 = ORIENTED_EDGE ( 'NONE', *, *, #146, .F. ) ;
#49 = MANIFOLD_SOLID_BREP ( 'Boss-Extrude1', #291 ) ;
#50 = CARTESIAN_POINT ( 'NONE',  ( 0.1082531754730547829, 0.1875000000000000555, 0.1250000000000000000 ) ) ;
#51 = EDGE_LOOP ( 'NONE', ( #231, #144, #27, #249 ) ) ;
#52 = CARTESIAN_POINT ( 'NONE',  ( -0.1082531754730548107, 0.1875000000000000555, 0.1250000000000000000 ) ) ;
#53 = CARTESIAN_POINT ( 'NONE',  ( 0.1082531754730549634, -0.1874999999999999167, 0.1250000000000000000 ) ) ;
#54 = EDGE_CURVE ( 'NONE', #271, #266, #31, .T. ) ;
#55 = VECTOR ( 'NONE', #44, 39.37007874015748143 ) ;
#56 = ORIENTED_EDGE ( 'NONE', *, *, #24, .F. ) ;
#57 = CARTESIAN_POINT ( 'NONE',  ( -0.1082531754730547829, -0.1874999999999999722, 0.0000000000000000000 ) ) ;
#58 = CARTESIAN_POINT ( 'NONE',  ( -0.1082531754730547829, -0.1874999999999999722, 0.1250000000000000000 ) ) ;
#59 =( NAMED_UNIT ( * ) PLANE_ANGLE_UNIT ( ) SI_UNIT ( $, .RADIAN. ) );
#60 = AXIS2_PLACEMENT_3D ( 'NONE', #183, #294, #72 ) ;
#61 = DIRECTION ( 'NONE',  ( 1.000000000000000000, 0.0000000000000000000, 0.0000000000000000000 ) ) ;
#62 = ORIENTED_EDGE ( 'NONE', *, *, #54, .F. ) ;
#63 = LINE ( 'NONE', #108, #209 ) ;
#64 = CARTESIAN_POINT ( 'NONE',  ( 0.0000000000000000000, 0.0000000000000000000, 0.1250000000000000000 ) ) ;
#65 = LINE ( 'NONE', #90, #42 ) ;
#66 = PRESENTATION_STYLE_ASSIGNMENT (( #301 ) ) ;
#67 = AXIS2_PLACEMENT_3D ( 'NONE', #293, #87, #84 ) ;
#68 = CARTESIAN_POINT ( 'NONE',  ( -0.1082531754730548107, 0.1875000000000000555, 0.0000000000000000000 ) ) ;
#69 = ORIENTED_EDGE ( 'NONE', *, *, #238, .T. ) ;
#70 = VERTEX_POINT ( 'NONE', #220 ) ;
#71 = CARTESIAN_POINT ( 'NONE',  ( 0.1082531754730549634, -0.1874999999999999167, 0.0000000000000000000 ) ) ;
#72 = DIRECTION ( 'NONE',  ( 0.5000000000000002220, 0.8660254037844384856, 0.0000000000000000000 ) ) ;
#73 = CARTESIAN_POINT ( 'NONE',  ( 0.2165063509461097047, -7.084637897906329745E-17, 0.1250000000000000000 ) ) ;
#74 = LINE ( 'NONE', #161, #247 ) ;
#75 = VECTOR ( 'NONE', #99, 39.37007874015748143 ) ;
#76 = DIRECTION ( 'NONE',  ( 1.000000000000000000, 3.154466349054401728E-16, 0.0000000000000000000 ) ) ;
#77 = CARTESIAN_POINT ( 'NONE',  ( -0.1082531754730548107, 0.1875000000000000555, 0.0000000000000000000 ) ) ;
#78 = ADVANCED_BREP_SHAPE_REPRESENTATION ( 'am-3947-125 375H x 125IN Spacer', ( #49, #303 ), #5 ) ;
#79 = LINE ( 'NONE', #115, #304 ) ;
#80 = ORIENTED_EDGE ( 'NONE', *, *, #299, .T. ) ;
#81 = EDGE_CURVE ( 'NONE', #298, #202, #232, .T. ) ;
#82 = CARTESIAN_POINT ( 'NONE',  ( -0.1082531754730548107, 0.1875000000000000555, 0.1250000000000000000 ) ) ;
#83 = AXIS2_PLACEMENT_3D ( 'NONE', #176, #295, #34 ) ;
#84 = DIRECTION ( 'NONE',  ( 1.000000000000000000, 0.0000000000000000000, -0.0000000000000000000 ) ) ;
#85 = FACE_OUTER_BOUND ( 'NONE', #51, .T. ) ;
#86 = VECTOR ( 'NONE', #98, 39.37007874015748143 ) ;
#87 = DIRECTION ( 'NONE',  ( 0.0000000000000000000, 0.0000000000000000000, 1.000000000000000000 ) ) ;
#88 = PRESENTATION_LAYER_ASSIGNMENT (  '', '', ( #244 ) ) ;
#89 = VECTOR ( 'NONE', #193, 39.37007874015748854 ) ;
#90 = CARTESIAN_POINT ( 'NONE',  ( 0.1082531754730547829, 0.1875000000000000555, 0.1250000000000000000 ) ) ;
#91 = CARTESIAN_POINT ( 'NONE',  ( -0.1082531754730547829, -0.1874999999999999722, 0.1250000000000000000 ) ) ;
#92 = DIRECTION ( 'NONE',  ( -0.0000000000000000000, -0.0000000000000000000, -1.000000000000000000 ) ) ;
#93 = DIRECTION ( 'NONE',  ( -0.0000000000000000000, -0.0000000000000000000, -1.000000000000000000 ) ) ;
#94 = PLANE ( 'NONE',  #67 ) ;
#95 = LINE ( 'NONE', #142, #225 ) ;
#96 = DIRECTION ( 'NONE',  ( 0.0000000000000000000, 0.0000000000000000000, 1.000000000000000000 ) ) ;
#97 = DIRECTION ( 'NONE',  ( 1.000000000000000000, 0.0000000000000000000, 0.0000000000000000000 ) ) ;
#98 = DIRECTION ( 'NONE',  ( -0.0000000000000000000, -0.0000000000000000000, -1.000000000000000000 ) ) ;
#99 = DIRECTION ( 'NONE',  ( 0.5000000000000003331, -0.8660254037844383745, 0.0000000000000000000 ) ) ;
#100 = AXIS2_PLACEMENT_3D ( 'NONE', #234, #201, #135 ) ;
#101 = LINE ( 'NONE', #50, #10 ) ;
#102 =( LENGTH_UNIT ( ) NAMED_UNIT ( * ) SI_UNIT ( $, .METRE. ) );
#103 = PRODUCT_DEFINITION_CONTEXT ( 'detailed design', #281, 'design' ) ;
#104 = UNCERTAINTY_MEASURE_WITH_UNIT (LENGTH_MEASURE( 1.000000000000000082E-05 ), #169, 'distance_accuracy_value', 'NONE');
#105 = ADVANCED_FACE ( 'NONE', ( #162, #224 ), #107, .T. ) ;
#106 = CARTESIAN_POINT ( 'NONE',  ( -0.1082531754730547829, -0.1874999999999999722, 0.1250000000000000000 ) ) ;
#107 = CYLINDRICAL_SURFACE ( 'NONE', #25, 0.3937007874015748254 ) ;
#108 = CARTESIAN_POINT ( 'NONE',  ( 0.1082531754730547829, 0.1875000000000000555, 0.0000000000000000000 ) ) ;
#109 = ORIENTED_EDGE ( 'NONE', *, *, #145, .T. ) ;
#110 = EDGE_CURVE ( 'NONE', #216, #168, #65, .T. ) ;
#111 = ADVANCED_FACE ( 'NONE', ( #133 ), #163, .T. ) ;
#112 = UNCERTAINTY_MEASURE_WITH_UNIT (LENGTH_MEASURE( 1.000000000000000082E-05 ), #38, 'distance_accuracy_value', 'NONE');
#113 = LINE ( 'NONE', #77, #219 ) ;
#114 = VERTEX_POINT ( 'NONE', #186 ) ;
#115 = CARTESIAN_POINT ( 'NONE',  ( -0.1082531754730548107, 0.1875000000000000555, 0.1250000000000000000 ) ) ;
#116 = DIRECTION ( 'NONE',  ( 1.000000000000000000, 0.0000000000000000000, 0.0000000000000000000 ) ) ;
#117 = ORIENTED_EDGE ( 'NONE', *, *, #129, .T. ) ;
#118 = AXIS2_PLACEMENT_3D ( 'NONE', #203, #206, #8 ) ;
#119 = FILL_AREA_STYLE_COLOUR ( '', #235 ) ;
#120 = FACE_OUTER_BOUND ( 'NONE', #222, .T. ) ;
#121 = APPLICATION_PROTOCOL_DEFINITION ( 'draft international standard', 'automotive_design', 1998, #281 ) ;
#122 = FACE_OUTER_BOUND ( 'NONE', #174, .T. ) ;
#123 = FACE_BOUND ( 'NONE', #191, .T. ) ;
#124 = EDGE_CURVE ( 'NONE', #272, #298, #130, .T. ) ;
#125 = VERTEX_POINT ( 'NONE', #82 ) ;
#126 = DIMENSIONAL_EXPONENTS ( 1.000000000000000000, 0.0000000000000000000, 0.0000000000000000000, 0.0000000000000000000, 0.0000000000000000000, 0.0000000000000000000, 0.0000000000000000000 ) ;
#127 = DIRECTION ( 'NONE',  ( -0.0000000000000000000, -0.0000000000000000000, -1.000000000000000000 ) ) ;
#128 = LINE ( 'NONE', #73, #33 ) ;
#129 = EDGE_CURVE ( 'NONE', #70, #136, #74, .T. ) ;
#130 = LINE ( 'NONE', #7, #75 ) ;
#131 =( NAMED_UNIT ( * ) PLANE_ANGLE_UNIT ( ) SI_UNIT ( $, .RADIAN. ) );
#132 = SURFACE_SIDE_STYLE ('',( #258 ) ) ;
#133 = FACE_OUTER_BOUND ( 'NONE', #18, .T. ) ;
#134 = ORIENTED_EDGE ( 'NONE', *, *, #41, .F. ) ;
#135 = DIRECTION ( 'NONE',  ( -0.5000000000000003331, 0.8660254037844383745, 0.0000000000000000000 ) ) ;
#136 = VERTEX_POINT ( 'NONE', #221 ) ;
#137 = PLANE ( 'NONE',  #83 ) ;
#138 = CARTESIAN_POINT ( 'NONE',  ( 0.0000000000000000000, 0.0000000000000000000, 0.1250000000000000000 ) ) ;
#139 = DIRECTION ( 'NONE',  ( 0.0000000000000000000, 0.0000000000000000000, 1.000000000000000000 ) ) ;
#140 = ORIENTED_EDGE ( 'NONE', *, *, #229, .F. ) ;
#141 = SURFACE_STYLE_USAGE ( .BOTH. , #132 ) ;
#142 = CARTESIAN_POINT ( 'NONE',  ( 0.2165063509461097047, -7.084637897906329745E-17, 0.0000000000000000000 ) ) ;
#143 = DIRECTION ( 'NONE',  ( -0.0000000000000000000, -0.0000000000000000000, -1.000000000000000000 ) ) ;
#144 = ORIENTED_EDGE ( 'NONE', *, *, #173, .F. ) ;
#145 = EDGE_CURVE ( 'NONE', #125, #190, #187, .T. ) ;
#146 = EDGE_CURVE ( 'NONE', #216, #125, #101, .T. ) ;
#147 = APPLICATION_PROTOCOL_DEFINITION ( 'draft international standard', 'automotive_design', 1998, #185 ) ;
#148 = EDGE_CURVE ( 'NONE', #271, #298, #151, .T. ) ;
#149 = PLANE ( 'NONE',  #192 ) ;
#150 = PRODUCT_DEFINITION_SHAPE ( 'NONE', 'NONE',  #9 ) ;
#151 = LINE ( 'NONE', #198, #171 ) ;
#152 = DIRECTION ( 'NONE',  ( -0.5000000000000001110, 0.8660254037844385966, 0.0000000000000000000 ) ) ;
#153 = ADVANCED_FACE ( 'NONE', ( #285, #123 ), #286, .T. ) ;
#154 = DIMENSIONAL_EXPONENTS ( 1.000000000000000000, 0.0000000000000000000, 0.0000000000000000000, 0.0000000000000000000, 0.0000000000000000000, 0.0000000000000000000, 0.0000000000000000000 ) ;
#155 = DIRECTION ( 'NONE',  ( 0.0000000000000000000, 0.0000000000000000000, 1.000000000000000000 ) ) ;
#156 = DIRECTION ( 'NONE',  ( -1.000000000000000000, 0.0000000000000000000, 0.0000000000000000000 ) ) ;
#157 = ORIENTED_EDGE ( 'NONE', *, *, #299, .F. ) ;
#158 = EDGE_LOOP ( 'NONE', ( #217 ) ) ;
#159 = PLANE ( 'NONE',  #60 ) ;
#160 = CARTESIAN_POINT ( 'NONE',  ( -0.2165063509461097047, 3.211045840221350913E-17, 0.0000000000000000000 ) ) ;
#161 = CARTESIAN_POINT ( 'NONE',  ( 0.2165063509461097047, -7.084637897906329745E-17, 0.1250000000000000000 ) ) ;
#162 = FACE_OUTER_BOUND ( 'NONE', #297, .T. ) ;
#163 = PLANE ( 'NONE',  #309 ) ;
#164 = DIRECTION ( 'NONE',  ( 1.000000000000000000, 3.154466349054401728E-16, 0.0000000000000000000 ) ) ;
#165 = VECTOR ( 'NONE', #245, 39.37007874015748854 ) ;
#166 =( GEOMETRIC_REPRESENTATION_CONTEXT ( 3 ) GLOBAL_UNCERTAINTY_ASSIGNED_CONTEXT ( ( #112 ) ) GLOBAL_UNIT_ASSIGNED_CONTEXT ( ( #38, #131, #40 ) ) REPRESENTATION_CONTEXT ( 'NONE', 'WORKASPACE' ) );
#167 = DIRECTION ( 'NONE',  ( -0.5000000000000002220, -0.8660254037844384856, 0.0000000000000000000 ) ) ;
#168 = VERTEX_POINT ( 'NONE', #311 ) ;
#169 =( CONVERSION_BASED_UNIT ( 'INCH', #223 ) LENGTH_UNIT ( ) NAMED_UNIT ( #126 ) );
#170 = CARTESIAN_POINT ( 'NONE',  ( 0.1082531754730549634, -0.1874999999999999167, 0.0000000000000000000 ) ) ;
#171 = VECTOR ( 'NONE', #127, 39.37007874015748143 ) ;
#172 = ADVANCED_FACE ( 'NONE', ( #213, #196 ), #94, .F. ) ;
#173 = EDGE_CURVE ( 'NONE', #114, #272, #262, .T. ) ;
#174 = EDGE_LOOP ( 'NONE', ( #12, #179, #6, #109 ) ) ;
#175 = LINE ( 'NONE', #241, #230 ) ;
#176 = CARTESIAN_POINT ( 'NONE',  ( 0.1082531754730547829, 0.1875000000000000555, 0.1250000000000000000 ) ) ;
#177 = AXIS2_PLACEMENT_3D ( 'NONE', #138, #139, #116 ) ;
#178 = ORIENTED_EDGE ( 'NONE', *, *, #81, .F. ) ;
#179 = ORIENTED_EDGE ( 'NONE', *, *, #110, .F. ) ;
#180 = ORIENTED_EDGE ( 'NONE', *, *, #110, .T. ) ;
#181 =( GEOMETRIC_REPRESENTATION_CONTEXT ( 3 ) GLOBAL_UNCERTAINTY_ASSIGNED_CONTEXT ( ( #104 ) ) GLOBAL_UNIT_ASSIGNED_CONTEXT ( ( #169, #59, #14 ) ) REPRESENTATION_CONTEXT ( 'NONE', 'WORKASPACE' ) );
#182 =( CONVERSION_BASED_UNIT ( 'INCH', #35 ) LENGTH_UNIT ( ) NAMED_UNIT ( #154 ) );
#183 = CARTESIAN_POINT ( 'NONE',  ( -0.1082531754730548107, 0.1875000000000000555, 0.1250000000000000000 ) ) ;
#184 =( NAMED_UNIT ( * ) PLANE_ANGLE_UNIT ( ) SI_UNIT ( $, .RADIAN. ) );
#185 = APPLICATION_CONTEXT ( 'automotive_design' ) ;
#186 = CARTESIAN_POINT ( 'NONE',  ( -0.2165063509461097047, 3.211045840221350913E-17, 0.1250000000000000000 ) ) ;
#187 = LINE ( 'NONE', #52, #55 ) ;
#188 = UNCERTAINTY_MEASURE_WITH_UNIT (LENGTH_MEASURE( 1.000000000000000082E-05 ), #182, 'distance_accuracy_value', 'NONE');
#189 = ORIENTED_EDGE ( 'NONE', *, *, #54, .T. ) ;
#190 = VERTEX_POINT ( 'NONE', #68 ) ;
#191 = EDGE_LOOP ( 'NONE', ( #227, #134, #62, #207, #215, #48 ) ) ;
#192 = AXIS2_PLACEMENT_3D ( 'NONE', #268, #3, #15 ) ;
#193 = DIRECTION ( 'NONE',  ( 0.5000000000000000000, 0.8660254037844385966, 0.0000000000000000000 ) ) ;
#194 =( NAMED_UNIT ( * ) SI_UNIT ( $, .STERADIAN. ) SOLID_ANGLE_UNIT ( ) );
#195 = CARTESIAN_POINT ( 'NONE',  ( 0.0000000000000000000, 0.0000000000000000000, 0.0000000000000000000 ) ) ;
#196 = FACE_BOUND ( 'NONE', #288, .T. ) ;
#197 = CARTESIAN_POINT ( 'NONE',  ( 0.0000000000000000000, 0.0000000000000000000, 0.0000000000000000000 ) ) ;
#198 = CARTESIAN_POINT ( 'NONE',  ( -0.1082531754730547829, -0.1874999999999999722, 0.1250000000000000000 ) ) ;
#199 = MECHANICAL_DESIGN_GEOMETRIC_PRESENTATION_REPRESENTATION (  '', ( #212 ), #181 ) ;
#200 = EDGE_CURVE ( 'NONE', #114, #271, #175, .T. ) ;
#201 = DIRECTION ( 'NONE',  ( 0.8660254037844384856, 0.5000000000000004441, -0.0000000000000000000 ) ) ;
#202 = VERTEX_POINT ( 'NONE', #71 ) ;
#203 = CARTESIAN_POINT ( 'NONE',  ( 0.2165063509461097047, -7.084637897906329745E-17, 0.1250000000000000000 ) ) ;
#204 = DIRECTION ( 'NONE',  ( -1.000000000000000000, 0.0000000000000000000, 0.0000000000000000000 ) ) ;
#205 = EDGE_CURVE ( 'NONE', #168, #190, #63, .T. ) ;
#206 = DIRECTION ( 'NONE',  ( -0.8660254037844385966, -0.5000000000000001110, 0.0000000000000000000 ) ) ;
#207 = ORIENTED_EDGE ( 'NONE', *, *, #200, .F. ) ;
#208 = CARTESIAN_POINT ( 'NONE',  ( 0.1082531754730547829, 0.1875000000000000555, 0.1250000000000000000 ) ) ;
#209 = VECTOR ( 'NONE', #239, 39.37007874015748143 ) ;
#210 = DIRECTION ( 'NONE',  ( 0.5000000000000003331, -0.8660254037844383745, 0.0000000000000000000 ) ) ;
#211 = FACE_OUTER_BOUND ( 'NONE', #243, .T. ) ;
#212 = STYLED_ITEM ( 'NONE', ( #66 ), #49 ) ;
#213 = FACE_OUTER_BOUND ( 'NONE', #19, .T. ) ;
#214 = FILL_AREA_STYLE ('',( #119 ) ) ;
#215 = ORIENTED_EDGE ( 'NONE', *, *, #39, .F. ) ;
#216 = VERTEX_POINT ( 'NONE', #208 ) ;
#217 = ORIENTED_EDGE ( 'NONE', *, *, #229, .T. ) ;
#218 = EDGE_CURVE ( 'NONE', #136, #168, #95, .T. ) ;
#219 = VECTOR ( 'NONE', #167, 39.37007874015749564 ) ;
#220 = CARTESIAN_POINT ( 'NONE',  ( 0.2165063509461097047, -7.084637897906329745E-17, 0.1250000000000000000 ) ) ;
#221 = CARTESIAN_POINT ( 'NONE',  ( 0.2165063509461097047, -7.084637897906329745E-17, 0.0000000000000000000 ) ) ;
#222 = EDGE_LOOP ( 'NONE', ( #284, #236, #279, #117 ) ) ;
#223 = LENGTH_MEASURE_WITH_UNIT ( LENGTH_MEASURE( 0.02539999999999999897 ), #102 );
#224 = FACE_OUTER_BOUND ( 'NONE', #158, .T. ) ;
#225 = VECTOR ( 'NONE', #273, 39.37007874015748143 ) ;
#226 = FACE_OUTER_BOUND ( 'NONE', #307, .T. ) ;
#227 = ORIENTED_EDGE ( 'NONE', *, *, #17, .F. ) ;
#228 = ADVANCED_FACE ( 'NONE', ( #120 ), #149, .T. ) ;
#229 = EDGE_CURVE ( 'NONE', #275, #275, #252, .T. ) ;
#230 = VECTOR ( 'NONE', #210, 39.37007874015748143 ) ;
#231 = ORIENTED_EDGE ( 'NONE', *, *, #124, .F. ) ;
#232 = LINE ( 'NONE', #57, #256 ) ;
#233 = CARTESIAN_POINT ( 'NONE',  ( 0.3937007874015748254, 0.0000000000000000000, 0.0000000000000000000 ) ) ;
#234 = CARTESIAN_POINT ( 'NONE',  ( -0.2165063509461097047, 3.211045840221350913E-17, 0.1250000000000000000 ) ) ;
#235 = COLOUR_RGB ( '',1.000000000000000000, 1.000000000000000000, 1.000000000000000000 ) ;
#236 = ORIENTED_EDGE ( 'NONE', *, *, #246, .F. ) ;
#237 = VERTEX_POINT ( 'NONE', #287 ) ;
#238 = EDGE_CURVE ( 'NONE', #202, #136, #11, .T. ) ;
#239 = DIRECTION ( 'NONE',  ( -1.000000000000000000, 0.0000000000000000000, 0.0000000000000000000 ) ) ;
#240 = ORIENTED_EDGE ( 'NONE', *, *, #124, .T. ) ;
#241 = CARTESIAN_POINT ( 'NONE',  ( -0.2165063509461097047, 3.211045840221350913E-17, 0.1250000000000000000 ) ) ;
#242 = LENGTH_MEASURE_WITH_UNIT ( LENGTH_MEASURE( 0.02539999999999999897 ), #265 );
#243 = EDGE_LOOP ( 'NONE', ( #56, #310, #257, #300 ) ) ;
#244 = STYLED_ITEM ( 'NONE', ( #264 ), #78 ) ;
#245 = DIRECTION ( 'NONE',  ( 0.5000000000000000000, 0.8660254037844385966, 0.0000000000000000000 ) ) ;
#246 = EDGE_CURVE ( 'NONE', #266, #202, #28, .T. ) ;
#247 = VECTOR ( 'NONE', #143, 39.37007874015748143 ) ;
#248 = CARTESIAN_POINT ( 'NONE',  ( 0.0000000000000000000, 0.0000000000000000000, 0.1250000000000000000 ) ) ;
#249 = ORIENTED_EDGE ( 'NONE', *, *, #148, .T. ) ;
#250 = ADVANCED_FACE ( 'NONE', ( #122 ), #137, .T. ) ;
#251 = ADVANCED_FACE ( 'NONE', ( #226 ), #305, .T. ) ;
#252 = CIRCLE ( 'NONE', #2, 0.3937007874015748254 ) ;
#253 = ORIENTED_EDGE ( 'NONE', *, *, #81, .T. ) ;
#254 = CARTESIAN_POINT ( 'NONE',  ( 0.1082531754730549634, -0.1874999999999999167, 0.1250000000000000000 ) ) ;
#255 = DIRECTION ( 'NONE',  ( 1.000000000000000000, 0.0000000000000000000, -0.0000000000000000000 ) ) ;
#256 = VECTOR ( 'NONE', #164, 39.37007874015748143 ) ;
#257 = ORIENTED_EDGE ( 'NONE', *, *, #39, .T. ) ;
#258 = SURFACE_STYLE_FILL_AREA ( #278 ) ;
#259 = PRODUCT_CONTEXT ( 'NONE', #185, 'mechanical' ) ;
#260 = VECTOR ( 'NONE', #36, 39.37007874015748143 ) ;
#261 = EDGE_LOOP ( 'NONE', ( #80 ) ) ;
#262 = LINE ( 'NONE', #269, #86 ) ;
#263 = PLANE ( 'NONE',  #100 ) ;
#264 = PRESENTATION_STYLE_ASSIGNMENT (( #141 ) ) ;
#265 =( LENGTH_UNIT ( ) NAMED_UNIT ( * ) SI_UNIT ( $, .METRE. ) );
#266 = VERTEX_POINT ( 'NONE', #22 ) ;
#267 = PRODUCT ( 'am-3947-125 375H x 125IN Spacer', 'am-3947-125 375H x 125IN Spacer', '', ( #259 ) ) ;
#268 = CARTESIAN_POINT ( 'NONE',  ( 0.1082531754730549634, -0.1874999999999999167, 0.1250000000000000000 ) ) ;
#269 = CARTESIAN_POINT ( 'NONE',  ( -0.2165063509461097047, 3.211045840221350913E-17, 0.1250000000000000000 ) ) ;
#270 = ORIENTED_EDGE ( 'NONE', *, *, #129, .F. ) ;
#271 = VERTEX_POINT ( 'NONE', #91 ) ;
#272 = VERTEX_POINT ( 'NONE', #160 ) ;
#273 = DIRECTION ( 'NONE',  ( -0.5000000000000001110, 0.8660254037844385966, 0.0000000000000000000 ) ) ;
#274 = LINE ( 'NONE', #53, #165 ) ;
#275 = VERTEX_POINT ( 'NONE', #233 ) ;
#276 = SURFACE_STYLE_FILL_AREA ( #214 ) ;
#277 = SURFACE_SIDE_STYLE ('',( #276 ) ) ;
#278 = FILL_AREA_STYLE ('',( #21 ) ) ;
#279 = ORIENTED_EDGE ( 'NONE', *, *, #41, .T. ) ;
#280 = ORIENTED_EDGE ( 'NONE', *, *, #24, .T. ) ;
#281 = APPLICATION_CONTEXT ( 'automotive_design' ) ;
#282 = ADVANCED_FACE ( 'NONE', ( #211 ), #159, .T. ) ;
#283 = ORIENTED_EDGE ( 'NONE', *, *, #218, .F. ) ;
#284 = ORIENTED_EDGE ( 'NONE', *, *, #238, .F. ) ;
#285 = FACE_OUTER_BOUND ( 'NONE', #261, .T. ) ;
#286 = PLANE ( 'NONE',  #43 ) ;
#287 = CARTESIAN_POINT ( 'NONE',  ( 0.3937007874015748254, 0.0000000000000000000, 0.1250000000000000000 ) ) ;
#288 = EDGE_LOOP ( 'NONE', ( #69, #29, #47, #280, #240, #253 ) ) ;
#289 = COLOUR_RGB ( '',1.000000000000000000, 1.000000000000000000, 1.000000000000000000 ) ;
#290 = VECTOR ( 'NONE', #76, 39.37007874015748143 ) ;
#291 = CLOSED_SHELL ( 'NONE', ( #153, #172, #105, #228, #251, #250, #282, #308, #111 ) ) ;
#292 = ORIENTED_EDGE ( 'NONE', *, *, #148, .F. ) ;
#293 = CARTESIAN_POINT ( 'NONE',  ( 0.0000000000000000000, 0.0000000000000000000, 0.0000000000000000000 ) ) ;
#294 = DIRECTION ( 'NONE',  ( 0.8660254037844385966, -0.5000000000000003331, 0.0000000000000000000 ) ) ;
#295 = DIRECTION ( 'NONE',  ( 0.0000000000000000000, -1.000000000000000000, 0.0000000000000000000 ) ) ;
#296 = PRESENTATION_LAYER_ASSIGNMENT (  '', '', ( #212 ) ) ;
#297 = EDGE_LOOP ( 'NONE', ( #157 ) ) ;
#298 = VERTEX_POINT ( 'NONE', #23 ) ;
#299 = EDGE_CURVE ( 'NONE', #237, #237, #4, .T. ) ;
#300 = ORIENTED_EDGE ( 'NONE', *, *, #173, .T. ) ;
#301 = SURFACE_STYLE_USAGE ( .BOTH. , #277 ) ;
#302 = ORIENTED_EDGE ( 'NONE', *, *, #17, .T. ) ;
#303 = AXIS2_PLACEMENT_3D ( 'NONE', #197, #96, #97 ) ;
#304 = VECTOR ( 'NONE', #32, 39.37007874015749564 ) ;
#305 = PLANE ( 'NONE',  #118 ) ;
#306 = ORIENTED_EDGE ( 'NONE', *, *, #246, .T. ) ;
#307 = EDGE_LOOP ( 'NONE', ( #283, #270, #302, #180 ) ) ;
#308 = ADVANCED_FACE ( 'NONE', ( #85 ), #263, .T. ) ;
#309 = AXIS2_PLACEMENT_3D ( 'NONE', #106, #26, #45 ) ;
#310 = ORIENTED_EDGE ( 'NONE', *, *, #145, .F. ) ;
#311 = CARTESIAN_POINT ( 'NONE',  ( 0.1082531754730547829, 0.1875000000000000555, 0.0000000000000000000 ) ) ;
ENDSEC;
END-ISO-10303-21;
